Kill Em With Kindness - Selena Gomez


Berikut lirik lagu Kill Em With Kindness - Selena Gomez, dilengkapi chord kunci gitar Kill Em With Kindness - Selena Gomez, dipersembahkan oleh Maingitardulu.com. Selamat memainkan lirik lagu dan kord gitar Kill Em With Kindness - Selena Gomez.

[Intro]
 Am        F            C            E               (x2)
e|--------6-4-|------------|------------|------------|
B|------------|--------4-6-|--------6-4-|2-----1-----|
G|---3--------|------------|------------|------------|
D|------------|------------|------------|------------|
A|------------|------------|------------|------------|
E|------------|------------|------------|------------|
Kill Em With Kindness - Selena Gomez


[Verse]

Am                 F           C
The world can be a nasty place,
                 E         Am
you know it, I know it, yeah.
                 F            C
We don't have to fall from grace,
     E
put down the weapons you fight with.


[Chorus]

Am                          F                     C
And kill 'em with kindness, kill 'em with kindness.
           E                          Am
Kill 'em, kill 'em, kill 'em with kindness.
                      F
Kill 'em with kindness,
                     C                 E
Kill 'em with kindness, go ahead, go ahead, go ahead now.


[Instrumental]

 


 Am        F            C            E                (x2)
e|--------6-4-|------------|------------|------------|
B|------------|--------4-6-|--------6-4-|2-----1-----|
G|---3--------|------------|------------|------------|
D|------------|------------|------------|------------|
A|------------|------------|------------|------------|
E|------------|------------|------------|------------|


[Verse 2]

Am                   F                C
We're running out of time chasing our lies.
              E                  Am
Every day a small piece of you dies.
            F                     C           E      
Always somebody you're willing to fight, to be right.
Am               F                     C
Your lies are bullets, your mouth's a gun
                     E
and no war in anger was ever won.
Am            F               C
Put out the fire before igniting,
 E
next time you're fighting.


[Chorus]

Am                          F                     C
And kill 'em with kindness, kill 'em with kindness.
           E                          Am
Kill 'em, kill 'em, kill 'em with kindness.
                      F
Kill 'em with kindness,
                     C                 E
Kill 'em with kindness, go ahead, go ahead, go ahead now.

Am        F            C            E                
e|--------6-4-|------------|------------|------------|
B|------------|--------4-6-|--------6-4-|2-----1-----|
G|---3--------|------------|------------|------------|
D|------------|------------|------------|------------|
A|------------|------------|------------|------------|
E|------------|------------|------------|------------|

 Am        F            C            E                
e|--------6-4-|------------|------------|------------|
B|------------|--------4-6-|--------6-4-|2-----1-----|
G|---3--------|------------|------------|------------|
D|------------|------------|------------|------------|
A|------------|------------|------------|------------|
E|------------|------------|------------|------------| 
                                    Go ahead, go ahead now. (x2)
 Am        F            C            E                
e|--------6-4-|------------|------------|------------|
B|------------|--------4-6-|--------6-4-|2-----1-----|
G|---3--------|------------|------------|------------|
D|------------|------------|------------|------------|
A|------------|------------|------------|------------|
E|------------|------------|------------|------------| 


[Bridge]
Am      
         F                    C
Your lies are bullets, your mouth's a gun
                   E
and no war in anger was ever won.
Am             F               C
Put out the fire before igniting,
 E
next time you're fighting.


[Chorus]

Am                          F                     C
And kill 'em with kindness, kill 'em with kindness.
           E                          Am
Kill 'em, kill 'em, kill 'em with kindness.
                      F
Kill 'em with kindness,
                     C                 E
Kill 'em with kindness, go ahead, go ahead, go ahead now.

Am        F            C            E                
e|--------6-4-|------------|------------|------------|
B|------------|--------4-6-|--------6-4-|2-----1-----|
G|---3--------|------------|------------|------------|
D|------------|------------|------------|------------|
A|------------|------------|------------|------------|
E|------------|------------|------------|------------|  

 Am        F            C            E                
e|--------6-4-|------------|------------|------------|
B|------------|--------4-6-|--------6-4-|2-----1-----|
G|---3--------|------------|------------|------------|
D|------------|------------|------------|------------|
A|------------|------------|------------|------------|
E|------------|------------|------------|------------|  
                                    Go ahead, go ahead now. (x2)
 Am        F            C            E                 Am 
e|--------6-4-|------------|------------|------------|
B|------------|--------4-6-|--------6-4-|2-----1-----|
G|---3--------|------------|------------|-----------3|
D|------------|------------|------------|------------|
A|------------|------------|------------|------------|
E|------------|------------|------------|------------| 
                                   Go ahead, go ahead now.
 
Kunci gitar sebelumnya: Seperti Dikejar Dosa - Kamasean Matthews feat Syaharani

PS: Belum tahu/hafal/lupa lagu Kill Em With Kindness - Selena Gomez. Lihat video clip/cover Kill Em With Kindness - Selena Gomez, melalui Youtube berikut ini : https://youtu.be/HHP5MKgK0o8





Dipublikasikan Oleh : Main Gitar Dulu
Judul Lagu : Kill Em With Kindness - Selena Gomez
Berikut lirik lagu Kill Em With Kindness - Selena Gomez , dilengkapi chord kunci gitar Kill Em With ...
Rating : 4.5



Beri komentar, testimoni atau saran :

Subscribe to Maingitardulu.com

Berlangganan Maingitardulu.com! Pilih cara berlangganan yang diatas atau silakan masukkan email dibawah.

Maingitardulu.com Lirik Lagu Chord Kunci Gitar

Name

Email *

Message *

 
Powered By Blogger
BROWSE NAMA ARTIST/BAND

Copyright © 2015 All Rights Reserved
Maingitardulu.com - Lirik Lagu dan Kord Gitar
Our patner Gigitaran.com | Kulagu.com

<b:if cond='data:page.type == "index"'>
Berita musik dan entertainment


</b:if>